GRY-Online.pl --> Archiwum Forum

taby gitara

10.10.2009
19:28
[1]

juchu198 [ Centurion ]

taby gitara

otóż mam taki problem nie umiem grac z tabów tylko akordami a jest mi to bardzo potrzebne mogłby mi ktoś wytłumaczyć jak grać z tabów ??

10.10.2009
19:31
[2]

Rasta' [ L3G3ND ]

Nic trudnego jeśli chodzi o taki typ tabów z cyferkami, więc masz 6 strun i każda cyferka odpowiada progowi, który musisz w danej chwili przytrzymać...

--------------
--------------
--------------
--------------
------3-------
---1---------- naciskasz 1 próg na 1 strunie, a później 3 próg na 2 strunie.


--------------
--------------
--------------
--------------
---3----------
---1---------- naciskasz 1 próg na 1 strunie i 3 próg na 2 strunie JEDNOCZESNIE .

tak dla przykłądu

10.10.2009
19:32
[3]

Niko Bellic [ Konsul ]

Człowieku, chciałbym się zamienić bo mam odwrotny problem :) Tabulaturę załapałem od razu, jest jak napisał użytkownik wyżej- naprawdę nic trudnego.

10.10.2009
19:33
[4]

juchu198 [ Centurion ]

E||--0---------0-----------------|-----0--2--5----5-7-5---------|
B||--------1-2--------0------0---|--2--------3----------7-5-----|
G||--2---2-------2-------0-1---2-|--------------------------5-6-|
D||----------------2--2----------|--4---------------------------|
A||------------------------------|------------------------------|
E||------------------------------|------------------------------|

a jak to zagrac?

10.10.2009
19:34
[5]

Darth Bor [ Pretorianin ]

jest pełno darmowych stron które to świetnie wyjaśniają, taki problem poszukać?

10.10.2009
19:35
[6]

DJ Pinata [ Subterranean ]

Cyfry to numery progów. Dalej jakiś problem?

10.10.2009
19:35
smile
[7]

szymonmac [ Legend ]

10.10.2009
19:37
[8]

juchu198 [ Centurion ]

dobra juz zalapalem

© 2000-2022 GRY-OnLine S.A.